Learn guitar chords

Learn guitar chords


Do you want to learn guitar chords? One key in today's world is searching the internet for guitar tablature
Get free guitar tablature here: (How to read tab)





Learn from the best!

This guy shows you how to play the electric / acoustic guitar in 30 days and bypass traditional music lessons and learn REAL techniques.

Techniques that got him into recording studios, Channel 7 news,
Hits FM Radio and Live on stage in front of thousands!

Over 70 JAM PACKED guitar lessons from beginner to advanced packed into an online website available at your fingertips!

Go to:

http://www.guitartips.com.au

... to find out more. It's an eye-opener!

Show me how to:
from http://www.GuitarTips.com.au








Guitar Made Easy





Contact: webmaster@guitarmadeeasy.com



Tablature Fundamentals

Learn how to play guitar using tab. There are a number of methods used to write instructions for playing songs on various instruments. Two simple notations for the guitar are chord diagrams and tablature (tab).

Generally, chord diagrams and tab do not address rhythm. It is assumed that the musician is familiar with the song and can interpret how to play it by using the notations as a guide. Lyrics often provide hints regarding the rhythm.

Tablature shows, which string should be pressed and which fret number. The lines across represent the strings, with the high E string (thinnest) shown at the top. The number in the line tells which fret should be fingered while the string is plucked.

A chord diagram shows which chords should be played along with the lyrics. Sometimes a small bit of tablature showing how to play the chord will be included.

Example 5: Tablature of Three Blind Mice:
E--------------------------------------------
B--------------------------------------------
G--------------------------------------------
D---2-----0----------------2-----0-----------
A---------------3----------------------3-----
E--------------------------------------------
Three Blind Mice Three Blind Mice

E--------------------------------------------
B--------------------------------------------
G---0--------------------0-------------------
D-------3---3----2-----------3---3----2------
A--------------------------------------------
E--------------------------------------------
See how they run See how they run


Example 6: Chord diagram of Three Blind Mice:
C
Three blind mice Three blind mice
C
See how they run See how they run
C
They all ran after the farmerís wife
C
She cut off their tails with a carving knife
C
Did you ever see such a sight in your life as
C G C
Three blind mice

Chord Diagrams:
C G
E------0------3--
B------1------0--
G------0------0--
D------2------0--
A------3------2--
E------0------3--
Learn guitar chords using tab and chord diagrams and keep practicing!